ISO-10303-21;
HEADER;
FILE_DESCRIPTION (( 'STEP AP203' ),
    '1' );
FILE_NAME ('End Cap SDR11_001 117 0140 0125.step',
    '2019-12-16T11:41:09',
    ( '' ),
    ( '' ),
    'SwSTEP 2.0',
    'SolidWorks 2019',
    '' );
FILE_SCHEMA (( 'CONFIG_CONTROL_DESIGN' ));
ENDSEC;

DATA;
#1 = CARTESIAN_POINT ( 'NONE',  ( 0.0000000000000000000, 95.15718860601040774, -62.50000000000000000 ) ) ;
#2 = FACE_OUTER_BOUND ( 'NONE', #29, .T. ) ;
#3 = DIRECTION ( 'NONE',  ( -0.0000000000000000000, -1.000000000000000000, -0.0000000000000000000 ) ) ;
#4 = CARTESIAN_POINT ( 'NONE',  ( 0.0000000000000000000, -80.93309765893729946, 1.908548214726479175 ) ) ;
#5 = PRODUCT_DEFINITION_SHAPE ( 'NONE', 'NONE',  #40 ) ;
#6 = DIRECTION ( 'NONE',  ( 0.0000000000000000000, 0.0000000000000000000, 1.000000000000000000 ) ) ;
#7 = AXIS2_PLACEMENT_3D ( 'NONE', #225, #6, #103 ) ;
#8 =( GEOMETRIC_REPRESENTATION_CONTEXT ( 3 ) GLOBAL_UNCERTAINTY_ASSIGNED_CONTEXT ( ( #286 ) ) GLOBAL_UNIT_ASSIGNED_CONTEXT ( ( #247, #224, #206 ) ) REPRESENTATION_CONTEXT ( 'NONE', 'WORKASPACE' ) );
#9 = DATE_AND_TIME ( #228, #26 ) ;
#10 = DATE_AND_TIME ( #229, #289 ) ;
#11 = PERSON_AND_ORGANIZATION ( #242, #302 ) ;
#12 = ORIENTED_EDGE ( 'NONE', *, *, #183, .F. ) ;
#13 = ORIENTED_EDGE ( 'NONE', *, *, #253, .F. ) ;
#14 = ORIENTED_EDGE ( 'NONE', *, *, #183, .T. ) ;
#15 = ORIENTED_EDGE ( 'NONE', *, *, #172, .T. ) ;
#16 = DIRECTION ( 'NONE',  ( -1.224646799147353207E-16, 0.0000000000000000000, -1.000000000000000000 ) ) ;
#17 = SECURITY_CLASSIFICATION ( '', '', #273 ) ;
#18 = DIRECTION ( 'NONE',  ( -0.0000000000000000000, -1.000000000000000000, -0.0000000000000000000 ) ) ;
#19 = DIRECTION ( 'NONE',  ( 0.0000000000000000000, 0.0000000000000000000, -1.000000000000000000 ) ) ;
#20 = DIRECTION ( 'NONE',  ( 0.0000000000000000000, 0.0000000000000000000, -1.000000000000000000 ) ) ;
#21 = CC_DESIGN_PERSON_AND_ORGANIZATION_ASSIGNMENT ( #80, #185, ( #251 ) ) ;
#22 = CARTESIAN_POINT ( 'NONE',  ( 7.654042494670957804E-15, 95.15718860601040774, 62.50000000000000000 ) ) ;
#23 = CARTESIAN_POINT ( 'NONE',  ( 0.0000000000000000000, 0.0000000000000000000, 0.0000000000000000000 ) ) ;
#24 = PRODUCT ( 'End Cap SDR11_001 117 0140 0125', 'End Cap SDR11_001 117 0140 0125', '', ( #207 ) ) ;
#25 = APPROVAL_ROLE ( '' ) ;
#26 = LOCAL_TIME ( 14, 41, 9.000000000000000000, #127 ) ;
#27 = APPROVAL_ROLE ( '' ) ;
#28 = CALENDAR_DATE ( 2019, 16, 12 ) ;
#29 = EDGE_LOOP ( 'NONE', ( #59, #236 ) ) ;
#30 = EDGE_LOOP ( 'NONE', ( #114, #255, #32 ) ) ;
#31 = AXIS2_PLACEMENT_3D ( 'NONE', #75, #179, #268 ) ;
#32 = ORIENTED_EDGE ( 'NONE', *, *, #304, .T. ) ;
#33 = EDGE_CURVE ( 'NONE', #301, #259, #187, .T. ) ;
#34 = ORIENTED_EDGE ( 'NONE', *, *, #151, .F. ) ;
#35 = CIRCLE ( 'NONE', #31, 51.10000000000003695 ) ;
#36 = AXIS2_PLACEMENT_3D ( 'NONE', #4, #102, #205 ) ;
#37 = DIRECTION ( 'NONE',  ( -0.0000000000000000000, -1.000000000000000000, -0.0000000000000000000 ) ) ;
#38 = CARTESIAN_POINT ( 'NONE',  ( 6.257945143642978535E-15, 87.00000000000004263, 51.10000000000003695 ) ) ;
#39 = CYLINDRICAL_SURFACE ( 'NONE', #130, 51.10000000000002274 ) ;
#40 = PRODUCT_DEFINITION ( 'BÝLÝNMEYEN', '', #251, #93 ) ;
#41 = DIRECTION ( 'NONE',  ( 0.0000000000000000000, 0.0000000000000000000, 1.000000000000000000 ) ) ;
#42 = LINE ( 'NONE', #123, #115 ) ;
#43 = DIRECTION ( 'NONE',  ( -1.000000000000000000, 0.0000000000000000000, 0.0000000000000000000 ) ) ;
#44 = CARTESIAN_POINT ( 'NONE',  ( 0.0000000000000000000, 95.15718860601040774, 0.0000000000000000000 ) ) ;
#45 = AXIS2_PLACEMENT_3D ( 'NONE', #23, #126, #223 ) ;
#46 = CIRCLE ( 'NONE', #36, 187.4999999999999432 ) ;
#47 = CARTESIAN_POINT ( 'NONE',  ( 0.0000000000000000000, -80.93309765893729946, 1.908548214726479175 ) ) ;
#48 = DIRECTION ( 'NONE',  ( 0.0000000000000000000, -1.000000000000000000, -0.0000000000000000000 ) ) ;
#49 = CARTESIAN_POINT ( 'NONE',  ( 5.854691731421723944E-15, 106.5571886060104276, 0.0000000000000000000 ) ) ;
#50 = AXIS2_PLACEMENT_3D ( 'NONE', #73, #177, #266 ) ;
#51 = DIRECTION ( 'NONE',  ( -0.0000000000000000000, -1.000000000000000000, -0.0000000000000000000 ) ) ;
#52 = APPLICATION_PROTOCOL_DEFINITION ( 'international standard', 'config_control_design', 1994, #248 ) ;
#53 = DATE_TIME_ROLE ( 'creation_date' ) ;
#54 = AXIS2_PLACEMENT_3D ( 'NONE', #97, #202, #290 ) ;
#55 = CIRCLE ( 'NONE', #50, 62.50000000000000000 ) ;
#56 = APPROVAL_PERSON_ORGANIZATION ( #11, #174, #210 ) ;
#57 = PERSON_AND_ORGANIZATION ( #242, #302 ) ;
#58 = SHAPE_DEFINITION_REPRESENTATION ( #5, #191 ) ;
#59 = ORIENTED_EDGE ( 'NONE', *, *, #142, .T. ) ;
#60 = EDGE_LOOP ( 'NONE', ( #160, #15, #14, #13 ) ) ;
#61 = AXIS2_PLACEMENT_3D ( 'NONE', #47, #43, #41 ) ;
#62 = ORIENTED_EDGE ( 'NONE', *, *, #271, .F. ) ;
#63 = ORIENTED_EDGE ( 'NONE', *, *, #172, .F. ) ;
#64 = DIRECTION ( 'NONE',  ( -0.0000000000000000000, -1.000000000000000000, -0.0000000000000000000 ) ) ;
#65 = CIRCLE ( 'NONE', #61, 176.1006288267000173 ) ;
#66 = DIRECTION ( 'NONE',  ( -0.0000000000000000000, -1.000000000000000000, -0.0000000000000000000 ) ) ;
#67 = CARTESIAN_POINT ( 'NONE',  ( 7.654042494670957804E-15, 0.0000000000000000000, 62.50000000000000000 ) ) ;
#68 = CARTESIAN_POINT ( 'NONE',  ( 0.0000000000000000000, -80.93309765893729946, 0.0000000000000000000 ) ) ;
#69 = FACE_BOUND ( 'NONE', #133, .T. ) ;
#70 = VECTOR ( 'NONE', #51, 1000.000000000000000 ) ;
#71 = LOCAL_TIME ( 14, 41, 9.000000000000000000, #79 ) ;
#72 = EDGE_CURVE ( 'NONE', #259, #163, #181, .T. ) ;
#73 = CARTESIAN_POINT ( 'NONE',  ( 0.0000000000000000000, 95.15718860601040774, 0.0000000000000000000 ) ) ;
#74 = DIRECTION ( 'NONE',  ( -1.224646799147353207E-16, 0.0000000000000000000, -1.000000000000000000 ) ) ;
#75 = CARTESIAN_POINT ( 'NONE',  ( 0.0000000000000000000, 87.00000000000004263, 0.0000000000000000000 ) ) ;
#76 = AXIS2_PLACEMENT_3D ( 'NONE', #204, #291, #74 ) ;
#77 = CIRCLE ( 'NONE', #76, 187.4999999999999432 ) ;
#78 = CC_DESIGN_PERSON_AND_ORGANIZATION_ASSIGNMENT ( #209, #296, ( #251 ) ) ;
#79 = COORDINATED_UNIVERSAL_TIME_OFFSET ( 3, 0, .AHEAD. ) ;
#80 = PERSON_AND_ORGANIZATION ( #242, #302 ) ;
#81 = AXIS2_PLACEMENT_3D ( 'NONE', #222, #3, #98 ) ;
#82 = CALENDAR_DATE ( 2019, 16, 12 ) ;
#83 = ORIENTED_EDGE ( 'NONE', *, *, #154, .T. ) ;
#84 = ORIENTED_EDGE ( 'NONE', *, *, #213, .T. ) ;
#85 = ORIENTED_EDGE ( 'NONE', *, *, #256, .F. ) ;
#86 = TOROIDAL_SURFACE ( 'NONE', #81, -1.908548214726479175, 176.1006288267000173 ) ;
#87 = AXIS2_PLACEMENT_3D ( 'NONE', #265, #48, #148 ) ;
#88 = EDGE_LOOP ( 'NONE', ( #63, #300, #212, #161 ) ) ;
#89 = FACE_OUTER_BOUND ( 'NONE', #60, .T. ) ;
#90 = DIRECTION ( 'NONE',  ( 0.0000000000000000000, 0.0000000000000000000, -1.000000000000000000 ) ) ;
#91 = AXIS2_PLACEMENT_3D ( 'NONE', #96, #201, #288 ) ;
#92 = CARTESIAN_POINT ( 'NONE',  ( 0.0000000000000000000, 0.0000000000000000000, 0.0000000000000000000 ) ) ;
#93 = DESIGN_CONTEXT ( 'detailed design', #248, 'design' ) ;
#94 = FACE_OUTER_BOUND ( 'NONE', #136, .T. ) ;
#95 = ADVANCED_FACE ( 'NONE', ( #89 ), #198, .F. ) ;
#96 = CARTESIAN_POINT ( 'NONE',  ( 0.0000000000000000000, -80.93309765893729946, 0.0000000000000000000 ) ) ;
#97 = CARTESIAN_POINT ( 'NONE',  ( 0.0000000000000000000, 0.0000000000000000000, 0.0000000000000000000 ) ) ;
#98 = DIRECTION ( 'NONE',  ( 0.0000000000000000000, 0.0000000000000000000, -1.000000000000000000 ) ) ;
#99 = TOROIDAL_SURFACE ( 'NONE', #91, -1.908548214726479175, 176.1006288267000173 ) ;
#100 = AXIS2_PLACEMENT_3D ( 'NONE', #44, #147, #244 ) ;
#101 = CC_DESIGN_APPROVAL ( #174, ( #17 ) ) ;
#102 = DIRECTION ( 'NONE',  ( -1.000000000000000000, 0.0000000000000000000, 0.0000000000000000000 ) ) ;
#103 = DIRECTION ( 'NONE',  ( 1.000000000000000000, 0.0000000000000000000, 0.0000000000000000000 ) ) ;
#104 = CIRCLE ( 'NONE', #100, 62.50000000000000000 ) ;
#105 = AXIS2_PLACEMENT_3D ( 'NONE', #68, #173, #264 ) ;
#106 = APPROVAL_DATE_TIME ( #9, #159 ) ;
#107 = APPROVAL_DATE_TIME ( #10, #137 ) ;
#108 = APPROVAL_STATUS ( 'not_yet_approved' ) ;
#109 = ORIENTED_EDGE ( 'NONE', *, *, #243, .T. ) ;
#110 = TOROIDAL_SURFACE ( 'NONE', #105, -1.908548214726479175, 187.4999999999999432 ) ;
#111 = ORIENTED_EDGE ( 'NONE', *, *, #72, .T. ) ;
#112 = ORIENTED_EDGE ( 'NONE', *, *, #213, .F. ) ;
#113 = PRODUCT_RELATED_PRODUCT_CATEGORY ( 'detail', '', ( #24 ) ) ;
#114 = ORIENTED_EDGE ( 'NONE', *, *, #33, .F. ) ;
#115 = VECTOR ( 'NONE', #220, 1000.000000000000000 ) ;
#116 = AXIS2_PLACEMENT_3D ( 'NONE', #144, #241, #20 ) ;
#117 = APPROVAL_PERSON_ORGANIZATION ( #153, #137, #27 ) ;
#118 = CARTESIAN_POINT ( 'NONE',  ( 0.0000000000000000000, 87.00000000000004263, 0.0000000000000000000 ) ) ;
#119 = DIRECTION ( 'NONE',  ( 0.0000000000000000000, 0.0000000000000000000, -1.000000000000000000 ) ) ;
#120 = LINE ( 'NONE', #219, #135 ) ;
#121 = TOROIDAL_SURFACE ( 'NONE', #116, -1.908548214726479175, 187.4999999999999432 ) ;
#122 = AXIS2_PLACEMENT_3D ( 'NONE', #92, #200, #285 ) ;
#123 = CARTESIAN_POINT ( 'NONE',  ( 7.654042494670957804E-15, 0.0000000000000000000, 62.50000000000000000 ) ) ;
#124 = FACE_OUTER_BOUND ( 'NONE', #30, .T. ) ;
#125 = CARTESIAN_POINT ( 'NONE',  ( 0.0000000000000000000, 0.0000000000000000000, -62.50000000000000000 ) ) ;
#126 = DIRECTION ( 'NONE',  ( -0.0000000000000000000, -1.000000000000000000, -0.0000000000000000000 ) ) ;
#127 = COORDINATED_UNIVERSAL_TIME_OFFSET ( 3, 0, .AHEAD. ) ;
#128 = EDGE_CURVE ( 'NONE', #211, #196, #168, .T. ) ;
#129 = CIRCLE ( 'NONE', #122, 51.10000000000000853 ) ;
#130 = AXIS2_PLACEMENT_3D ( 'NONE', #143, #240, #19 ) ;
#131 = COORDINATED_UNIVERSAL_TIME_OFFSET ( 3, 0, .AHEAD. ) ;
#132 = DATE_AND_TIME ( #28, #203 ) ;
#133 = EDGE_LOOP ( 'NONE', ( #235, #12 ) ) ;
#134 = ORIENTED_EDGE ( 'NONE', *, *, #243, .F. ) ;
#135 = VECTOR ( 'NONE', #306, 1000.000000000000000 ) ;
#136 = EDGE_LOOP ( 'NONE', ( #134, #281, #112 ) ) ;
#137 = APPROVAL ( #250, 'BELÝRTÝLMEMÝÞ' ) ;
#138 = ORIENTED_EDGE ( 'NONE', *, *, #142, .F. ) ;
#139 = CARTESIAN_POINT ( 'NONE',  ( -2.337297462183178176E-16, -80.93309765893729946, -1.908548214726479175 ) ) ;
#140 = VECTOR ( 'NONE', #66, 1000.000000000000000 ) ;
#141 = DIRECTION ( 'NONE',  ( 0.0000000000000000000, 0.0000000000000000000, -1.000000000000000000 ) ) ;
#142 = EDGE_CURVE ( 'NONE', #234, #192, #155, .T. ) ;
#143 = CARTESIAN_POINT ( 'NONE',  ( 0.0000000000000000000, 0.0000000000000000000, 0.0000000000000000000 ) ) ;
#144 = CARTESIAN_POINT ( 'NONE',  ( 0.0000000000000000000, -80.93309765893729946, 0.0000000000000000000 ) ) ;
#145 = AXIS2_PLACEMENT_3D ( 'NONE', #218, #305, #90 ) ;
#146 = CIRCLE ( 'NONE', #145, 62.50000000000000000 ) ;
#147 = DIRECTION ( 'NONE',  ( -0.0000000000000000000, -1.000000000000000000, -0.0000000000000000000 ) ) ;
#148 = DIRECTION ( 'NONE',  ( 0.0000000000000000000, 0.0000000000000000000, -1.000000000000000000 ) ) ;
#149 = FACE_OUTER_BOUND ( 'NONE', #298, .T. ) ;
#150 = AXIS2_PLACEMENT_3D ( 'NONE', #239, #18, #119 ) ;
#151 = EDGE_CURVE ( 'NONE', #192, #234, #146, .T. ) ;
#152 = PERSON_AND_ORGANIZATION ( #242, #302 ) ;
#153 = PERSON_AND_ORGANIZATION ( #242, #302 ) ;
#154 = EDGE_CURVE ( 'NONE', #260, #234, #199, .T. ) ;
#155 = CIRCLE ( 'NONE', #150, 62.50000000000000000 ) ;
#156 = AXIS2_PLACEMENT_3D ( 'NONE', #261, #37, #141 ) ;
#157 = CC_DESIGN_APPROVAL ( #137, ( #251 ) ) ;
#158 = PERSON_AND_ORGANIZATION_ROLE ( 'classification_officer' ) ;
#159 = APPROVAL ( #249, 'BELÝRTÝLMEMÝÞ' ) ;
#160 = ORIENTED_EDGE ( 'NONE', *, *, #72, .F. ) ;
#161 = ORIENTED_EDGE ( 'NONE', *, *, #128, .T. ) ;
#162 = AXIS2_PLACEMENT_3D ( 'NONE', #282, #64, #165 ) ;
#163 = VERTEX_POINT ( 'NONE', #169 ) ;
#164 = ORIENTED_EDGE ( 'NONE', *, *, #33, .T. ) ;
#165 = DIRECTION ( 'NONE',  ( 0.0000000000000000000, 0.0000000000000000000, -1.000000000000000000 ) ) ;
#166 = ADVANCED_FACE ( 'NONE', ( #262 ), #39, .F. ) ;
#167 = CYLINDRICAL_SURFACE ( 'NONE', #54, 62.50000000000000000 ) ;
#168 = CIRCLE ( 'NONE', #156, 51.10000000000000853 ) ;
#169 = CARTESIAN_POINT ( 'NONE',  ( 0.0000000000000000000, 87.00000000000004263, -51.10000000000003695 ) ) ;
#170 = FACE_OUTER_BOUND ( 'NONE', #231, .T. ) ;
#171 = FACE_OUTER_BOUND ( 'NONE', #277, .T. ) ;
#172 = EDGE_CURVE ( 'NONE', #259, #196, #120, .T. ) ;
#173 = DIRECTION ( 'NONE',  ( -0.0000000000000000000, -1.000000000000000000, -0.0000000000000000000 ) ) ;
#174 = APPROVAL ( #108, 'BELÝRTÝLMEMÝÞ' ) ;
#175 = APPROVAL_PERSON_ORGANIZATION ( #152, #159, #25 ) ;
#176 = PLANE ( 'NONE',  #87 ) ;
#177 = DIRECTION ( 'NONE',  ( -0.0000000000000000000, -1.000000000000000000, -0.0000000000000000000 ) ) ;
#178 = LINE ( 'NONE', #267, #70 ) ;
#179 = DIRECTION ( 'NONE',  ( -0.0000000000000000000, -1.000000000000000000, -0.0000000000000000000 ) ) ;
#180 = AXIS2_PLACEMENT_3D ( 'NONE', #118, #217, #303 ) ;
#181 = CIRCLE ( 'NONE', #180, 51.10000000000003695 ) ;
#182 = PERSON_AND_ORGANIZATION ( #242, #302 ) ;
#183 = EDGE_CURVE ( 'NONE', #196, #211, #129, .T. ) ;
#184 = CALENDAR_DATE ( 2019, 16, 12 ) ;
#185 = PERSON_AND_ORGANIZATION_ROLE ( 'design_supplier' ) ;
#186 = AXIS2_PLACEMENT_3D ( 'NONE', #139, #237, #16 ) ;
#187 = CIRCLE ( 'NONE', #186, 176.1006288267000173 ) ;
#188 = DATE_AND_TIME ( #82, #238 ) ;
#189 = ORIENTED_EDGE ( 'NONE', *, *, #195, .T. ) ;
#190 = ORIENTED_EDGE ( 'NONE', *, *, #271, .T. ) ;
#191 = ADVANCED_BREP_SHAPE_REPRESENTATION ( 'End Cap SDR11_001 117 0140 0125', ( #280, #7 ), #8 ) ;
#192 = VERTEX_POINT ( 'NONE', #67 ) ;
#193 = ADVANCED_FACE ( 'NONE', ( #170 ), #121, .T. ) ;
#194 = CLOSED_SHELL ( 'NONE', ( #232, #193, #263, #95, #166, #226, #284, #197, #221 ) ) ;
#195 = EDGE_CURVE ( 'NONE', #214, #192, #42, .T. ) ;
#196 = VERTEX_POINT ( 'NONE', #307 ) ;
#197 = ADVANCED_FACE ( 'NONE', ( #94 ), #110, .T. ) ;
#198 = CYLINDRICAL_SURFACE ( 'NONE', #162, 51.10000000000002274 ) ;
#199 = LINE ( 'NONE', #283, #140 ) ;
#200 = DIRECTION ( 'NONE',  ( -0.0000000000000000000, -1.000000000000000000, -0.0000000000000000000 ) ) ;
#201 = DIRECTION ( 'NONE',  ( -0.0000000000000000000, -1.000000000000000000, -0.0000000000000000000 ) ) ;
#202 = DIRECTION ( 'NONE',  ( -0.0000000000000000000, -1.000000000000000000, -0.0000000000000000000 ) ) ;
#203 = LOCAL_TIME ( 14, 41, 9.000000000000000000, #252 ) ;
#204 = CARTESIAN_POINT ( 'NONE',  ( -2.337297462183178176E-16, -80.93309765893729946, -1.908548214726479175 ) ) ;
#205 = DIRECTION ( 'NONE',  ( 0.0000000000000000000, 0.0000000000000000000, 1.000000000000000000 ) ) ;
#206 =( NAMED_UNIT ( * ) SI_UNIT ( $, .STERADIAN. ) SOLID_ANGLE_UNIT ( ) );
#207 = MECHANICAL_CONTEXT ( 'NONE', #233, 'mechanical' ) ;
#208 = PERSON_AND_ORGANIZATION ( #242, #302 ) ;
#209 = PERSON_AND_ORGANIZATION ( #242, #302 ) ;
#210 = APPROVAL_ROLE ( '' ) ;
#211 = VERTEX_POINT ( 'NONE', #287 ) ;
#212 = ORIENTED_EDGE ( 'NONE', *, *, #253, .T. ) ;
#213 = EDGE_CURVE ( 'NONE', #214, #260, #104, .T. ) ;
#214 = VERTEX_POINT ( 'NONE', #22 ) ;
#215 = EDGE_LOOP ( 'NONE', ( #85, #164, #111 ) ) ;
#216 = CC_DESIGN_APPROVAL ( #159, ( #40 ) ) ;
#217 = DIRECTION ( 'NONE',  ( -0.0000000000000000000, -1.000000000000000000, -0.0000000000000000000 ) ) ;
#218 = CARTESIAN_POINT ( 'NONE',  ( 0.0000000000000000000, 0.0000000000000000000, 0.0000000000000000000 ) ) ;
#219 = CARTESIAN_POINT ( 'NONE',  ( 6.257945143642977746E-15, 0.0000000000000000000, 51.10000000000002274 ) ) ;
#220 = DIRECTION ( 'NONE',  ( -0.0000000000000000000, -1.000000000000000000, -0.0000000000000000000 ) ) ;
#221 = ADVANCED_FACE ( 'NONE', ( #124 ), #99, .F. ) ;
#222 = CARTESIAN_POINT ( 'NONE',  ( 0.0000000000000000000, -80.93309765893729946, 0.0000000000000000000 ) ) ;
#223 = DIRECTION ( 'NONE',  ( 0.0000000000000000000, 0.0000000000000000000, -1.000000000000000000 ) ) ;
#224 =( NAMED_UNIT ( * ) PLANE_ANGLE_UNIT ( ) SI_UNIT ( $, .RADIAN. ) );
#225 = CARTESIAN_POINT ( 'NONE',  ( 0.0000000000000000000, 0.0000000000000000000, 0.0000000000000000000 ) ) ;
#226 = ADVANCED_FACE ( 'NONE', ( #2, #69 ), #176, .T. ) ;
#227 = CC_DESIGN_DATE_AND_TIME_ASSIGNMENT ( #132, #230, ( #17 ) ) ;
#228 = CALENDAR_DATE ( 2019, 16, 12 ) ;
#229 = CALENDAR_DATE ( 2019, 16, 12 ) ;
#230 = DATE_TIME_ROLE ( 'classification_date' ) ;
#231 = EDGE_LOOP ( 'NONE', ( #299, #109, #62 ) ) ;
#232 = ADVANCED_FACE ( 'NONE', ( #245 ), #86, .F. ) ;
#233 = APPLICATION_CONTEXT ( 'configuration controlled 3d designs of mechanical parts and assemblies' ) ;
#234 = VERTEX_POINT ( 'NONE', #125 ) ;
#235 = ORIENTED_EDGE ( 'NONE', *, *, #128, .F. ) ;
#236 = ORIENTED_EDGE ( 'NONE', *, *, #151, .T. ) ;
#237 = DIRECTION ( 'NONE',  ( 1.000000000000000000, 0.0000000000000000000, -1.224646799147353207E-16 ) ) ;
#238 = LOCAL_TIME ( 14, 41, 9.000000000000000000, #297 ) ;
#239 = CARTESIAN_POINT ( 'NONE',  ( 0.0000000000000000000, 0.0000000000000000000, 0.0000000000000000000 ) ) ;
#240 = DIRECTION ( 'NONE',  ( -0.0000000000000000000, -1.000000000000000000, -0.0000000000000000000 ) ) ;
#241 = DIRECTION ( 'NONE',  ( -0.0000000000000000000, -1.000000000000000000, -0.0000000000000000000 ) ) ;
#242 = PERSON ( 'BELÝRTÝLMEMÝÞ', 'BELÝRTÝLMEMÝÞ', 'BELÝRTÝLMEMÝÞ', ('BELÝRTÝLMEMÝÞ'), ('BELÝRTÝLMEMÝÞ'), ('BELÝRTÝLMEMÝÞ') ) ;
#243 = EDGE_CURVE ( 'NONE', #276, #214, #77, .T. ) ;
#244 = DIRECTION ( 'NONE',  ( 0.0000000000000000000, 0.0000000000000000000, -1.000000000000000000 ) ) ;
#245 = FACE_OUTER_BOUND ( 'NONE', #215, .T. ) ;
#246 = CYLINDRICAL_SURFACE ( 'NONE', #45, 62.50000000000000000 ) ;
#247 =( LENGTH_UNIT ( ) NAMED_UNIT ( * ) SI_UNIT ( .MILLI., .METRE. ) );
#248 = APPLICATION_CONTEXT ( 'configuration controlled 3d designs of mechanical parts and assemblies' ) ;
#249 = APPROVAL_STATUS ( 'not_yet_approved' ) ;
#250 = APPROVAL_STATUS ( 'not_yet_approved' ) ;
#251 = PRODUCT_DEFINITION_FORMATION_WITH_SPECIFIED_SOURCE ( 'HERHANGÝ', '', #24, .NOT_KNOWN. ) ;
#252 = COORDINATED_UNIVERSAL_TIME_OFFSET ( 3, 0, .AHEAD. ) ;
#253 = EDGE_CURVE ( 'NONE', #163, #211, #178, .T. ) ;
#254 = CC_DESIGN_DATE_AND_TIME_ASSIGNMENT ( #272, #53, ( #40 ) ) ;
#255 = ORIENTED_EDGE ( 'NONE', *, *, #256, .T. ) ;
#256 = EDGE_CURVE ( 'NONE', #301, #163, #65, .T. ) ;
#257 = ORIENTED_EDGE ( 'NONE', *, *, #154, .F. ) ;
#258 = CC_DESIGN_PERSON_AND_ORGANIZATION_ASSIGNMENT ( #182, #270, ( #24 ) ) ;
#259 = VERTEX_POINT ( 'NONE', #38 ) ;
#260 = VERTEX_POINT ( 'NONE', #1 ) ;
#261 = CARTESIAN_POINT ( 'NONE',  ( 0.0000000000000000000, 0.0000000000000000000, 0.0000000000000000000 ) ) ;
#262 = FACE_OUTER_BOUND ( 'NONE', #88, .T. ) ;
#263 = ADVANCED_FACE ( 'NONE', ( #171 ), #167, .T. ) ;
#264 = DIRECTION ( 'NONE',  ( 0.0000000000000000000, 0.0000000000000000000, -1.000000000000000000 ) ) ;
#265 = CARTESIAN_POINT ( 'NONE',  ( 51.10000000000000853, 0.0000000000000000000, 0.0000000000000000000 ) ) ;
#266 = DIRECTION ( 'NONE',  ( 0.0000000000000000000, 0.0000000000000000000, -1.000000000000000000 ) ) ;
#267 = CARTESIAN_POINT ( 'NONE',  ( 0.0000000000000000000, 0.0000000000000000000, -51.10000000000002274 ) ) ;
#268 = DIRECTION ( 'NONE',  ( 0.0000000000000000000, 0.0000000000000000000, -1.000000000000000000 ) ) ;
#269 = APPLICATION_PROTOCOL_DEFINITION ( 'international standard', 'config_control_design', 1994, #233 ) ;
#270 = PERSON_AND_ORGANIZATION_ROLE ( 'design_owner' ) ;
#271 = EDGE_CURVE ( 'NONE', #260, #214, #55, .T. ) ;
#272 = DATE_AND_TIME ( #184, #71 ) ;
#273 = SECURITY_CLASSIFICATION_LEVEL ( 'unclassified' ) ;
#274 = CC_DESIGN_SECURITY_CLASSIFICATION ( #17, ( #251 ) ) ;
#275 = APPROVAL_DATE_TIME ( #188, #174 ) ;
#276 = VERTEX_POINT ( 'NONE', #49 ) ;
#277 = EDGE_LOOP ( 'NONE', ( #190, #189, #138, #257 ) ) ;
#278 = ORIENTED_EDGE ( 'NONE', *, *, #195, .F. ) ;
#279 = CC_DESIGN_PERSON_AND_ORGANIZATION_ASSIGNMENT ( #57, #158, ( #17 ) ) ;
#280 = MANIFOLD_SOLID_BREP ( 'Döndür1', #194 ) ;
#281 = ORIENTED_EDGE ( 'NONE', *, *, #293, .T. ) ;
#282 = CARTESIAN_POINT ( 'NONE',  ( 0.0000000000000000000, 0.0000000000000000000, 0.0000000000000000000 ) ) ;
#283 = CARTESIAN_POINT ( 'NONE',  ( 0.0000000000000000000, 0.0000000000000000000, -62.50000000000000000 ) ) ;
#284 = ADVANCED_FACE ( 'NONE', ( #149 ), #246, .T. ) ;
#285 = DIRECTION ( 'NONE',  ( 0.0000000000000000000, 0.0000000000000000000, -1.000000000000000000 ) ) ;
#286 = UNCERTAINTY_MEASURE_WITH_UNIT (LENGTH_MEASURE( 1.000000000000000082E-05 ), #247, 'distance_accuracy_value', 'NONE');
#287 = CARTESIAN_POINT ( 'NONE',  ( 0.0000000000000000000, 0.0000000000000000000, -51.10000000000000853 ) ) ;
#288 = DIRECTION ( 'NONE',  ( 0.0000000000000000000, 0.0000000000000000000, -1.000000000000000000 ) ) ;
#289 = LOCAL_TIME ( 14, 41, 9.000000000000000000, #131 ) ;
#290 = DIRECTION ( 'NONE',  ( 0.0000000000000000000, 0.0000000000000000000, -1.000000000000000000 ) ) ;
#291 = DIRECTION ( 'NONE',  ( 1.000000000000000000, 0.0000000000000000000, -1.224646799147353207E-16 ) ) ;
#292 = CARTESIAN_POINT ( 'NONE',  ( -7.727477043432469909E-15, 95.15718860601040774, 0.0000000000000000000 ) ) ;
#293 = EDGE_CURVE ( 'NONE', #276, #260, #46, .T. ) ;
#294 = CC_DESIGN_PERSON_AND_ORGANIZATION_ASSIGNMENT ( #208, #295, ( #40 ) ) ;
#295 = PERSON_AND_ORGANIZATION_ROLE ( 'creator' ) ;
#296 = PERSON_AND_ORGANIZATION_ROLE ( 'creator' ) ;
#297 = COORDINATED_UNIVERSAL_TIME_OFFSET ( 3, 0, .AHEAD. ) ;
#298 = EDGE_LOOP ( 'NONE', ( #278, #84, #83, #34 ) ) ;
#299 = ORIENTED_EDGE ( 'NONE', *, *, #293, .F. ) ;
#300 = ORIENTED_EDGE ( 'NONE', *, *, #304, .F. ) ;
#301 = VERTEX_POINT ( 'NONE', #292 ) ;
#302 = ORGANIZATION ( 'BELÝRTÝLMEMÝÞ', 'BELÝRTÝLMEMÝÞ', '' ) ;
#303 = DIRECTION ( 'NONE',  ( 0.0000000000000000000, 0.0000000000000000000, -1.000000000000000000 ) ) ;
#304 = EDGE_CURVE ( 'NONE', #163, #259, #35, .T. ) ;
#305 = DIRECTION ( 'NONE',  ( -0.0000000000000000000, -1.000000000000000000, -0.0000000000000000000 ) ) ;
#306 = DIRECTION ( 'NONE',  ( -0.0000000000000000000, -1.000000000000000000, -0.0000000000000000000 ) ) ;
#307 = CARTESIAN_POINT ( 'NONE',  ( 6.257945143642976957E-15, 0.0000000000000000000, 51.10000000000000853 ) ) ;
ENDSEC;
END-ISO-10303-21;
